ISO-10303-21;
HEADER;
/****************************************************************
 * Generated by software with PDElib inside                    *
 * PDElib Version v51a, created Wed 11/30/2011                  *
 * ITI Transcendata (http://www.transcendata.com/)              *
 ****************************************************************/
FILE_DESCRIPTION((''),'2;1');
FILE_NAME('C:\\RoxtecConfigurator\\CreatedFiles\\STEP\\SK2X2.stp','2013-01-29T16:15:46',(''),(''),'Autodesk Inventor 2013','Autodesk Inventor 2013','');
FILE_SCHEMA(('AUTOMOTIVE_DESIGN { 1 0 10303 214 1 1 1 1 }'));
ENDSEC;
DATA;
#5=APPLICATION_CONTEXT('automotive design');
#6=APPLICATION_PROTOCOL_DEFINITION('International Standard','automotive_design',2001,#5);
#7=PRODUCT_CONTEXT('',#5,'mechanical');
#8=PRODUCT('roxtec S_SF_G','roxtec S_SF_G',$,(#7));
#9=PRODUCT_RELATED_PRODUCT_CATEGORY('part',$,(#8));
#10=PRODUCT_DEFINITION_FORMATION('',$,#8);
#11=PRODUCT_DEFINITION_CONTEXT('part definition',#5,'design');
#12=PRODUCT_DEFINITION('',$,#10,#11);
#18=(NAMED_UNIT(*)PLANE_ANGLE_UNIT()SI_UNIT($,.RADIAN.));
#19=DIMENSIONAL_EXPONENTS(0.0,0.0,0.0,0.0,0.0,0.0,0.0);
#20=PLANE_ANGLE_MEASURE_WITH_UNIT(PLANE_ANGLE_MEASURE(0.0174532925),#18);
#24=(CONVERSION_BASED_UNIT('DEGREE',#20)NAMED_UNIT(#19)PLANE_ANGLE_UNIT());
#28=(NAMED_UNIT(*)SI_UNIT($,.STERADIAN.)SOLID_ANGLE_UNIT());
#32=(LENGTH_UNIT()NAMED_UNIT(*)SI_UNIT(.MILLI.,.METRE.));
#34=UNCERTAINTY_MEASURE_WITH_UNIT(LENGTH_MEASURE(0.01),#32,'DISTANCE_ACCURACY_VALUE','');
#36=(GEOMETRIC_REPRESENTATION_CONTEXT(3)GLOBAL_UNCERTAINTY_ASSIGNED_CONTEXT((#34))GLOBAL_UNIT_ASSIGNED_CONTEXT((#24,#28,#32))REPRESENTATION_CONTEXT('None','None'));
#37=AXIS2_PLACEMENT_3D('',#38,#39,#40);
#38=CARTESIAN_POINT('',(0.0,0.0,0.0));
#39=DIRECTION('',(0.0,0.0,1.0));
#40=DIRECTION('',(1.0,0.0,0.0));
#41=SHAPE_REPRESENTATION('',(#37),#36);
#42=PRODUCT_DEFINITION_SHAPE('','',#12);
#43=SHAPE_DEFINITION_REPRESENTATION(#42,#41);
#49=(NAMED_UNIT(*)PLANE_ANGLE_UNIT()SI_UNIT($,.RADIAN.));
#50=DIMENSIONAL_EXPONENTS(0.0,0.0,0.0,0.0,0.0,0.0,0.0);
#51=PLANE_ANGLE_MEASURE_WITH_UNIT(PLANE_ANGLE_MEASURE(0.0174532925),#49);
#55=(CONVERSION_BASED_UNIT('DEGREE',#51)NAMED_UNIT(#50)PLANE_ANGLE_UNIT());
#59=(NAMED_UNIT(*)SI_UNIT($,.STERADIAN.)SOLID_ANGLE_UNIT());
#63=(LENGTH_UNIT()NAMED_UNIT(*)SI_UNIT(.MILLI.,.METRE.));
#65=UNCERTAINTY_MEASURE_WITH_UNIT(LENGTH_MEASURE(0.000001),#63,'DISTANCE_ACCURACY_VALUE','');
#67=(GEOMETRIC_REPRESENTATION_CONTEXT(3)GLOBAL_UNCERTAINTY_ASSIGNED_CONTEXT((#65))GLOBAL_UNIT_ASSIGNED_CONTEXT((#55,#59,#63))REPRESENTATION_CONTEXT('','3D'));
#68=CARTESIAN_POINT('',(-5.000000000013483,-3.0,-50.500000000000007));
#69=DIRECTION('',(-1.0,0.0,0.0));
#70=DIRECTION('',(0.0,0.0,1.0));
#71=AXIS2_PLACEMENT_3D('',#68,#69,#70);
#72=PLANE('',#71);
#73=CARTESIAN_POINT('',(-5.000000000013483,-3.0,-50.500000000000007));
#74=VERTEX_POINT('',#73);
#75=CARTESIAN_POINT('',(-5.0000000000135,-3.0,50.500000000000007));
#76=VERTEX_POINT('',#75);
#77=CARTESIAN_POINT('',(-5.000000000013483,-3.0,-50.500000000000007));
#78=DIRECTION('',(0.0,0.0,1.0));
#79=VECTOR('',#78,101.00000000000001);
#80=LINE('',#77,#79);
#81=EDGE_CURVE('',#74,#76,#80,.T.);
#82=ORIENTED_EDGE('',*,*,#81,.T.);
#83=CARTESIAN_POINT('',(-5.0000000000135,97.0,50.500000000000007));
#84=VERTEX_POINT('',#83);
#85=CARTESIAN_POINT('',(-5.0000000000135,97.0,50.500000000000007));
#86=DIRECTION('',(0.0,-1.0,0.0));
#87=VECTOR('',#86,100.0);
#88=LINE('',#85,#87);
#89=EDGE_CURVE('',#84,#76,#88,.T.);
#90=ORIENTED_EDGE('',*,*,#89,.F.);
#91=CARTESIAN_POINT('',(-5.000000000013483,97.0,-50.500000000000007));
#92=VERTEX_POINT('',#91);
#93=CARTESIAN_POINT('',(-5.000000000013483,97.0,-50.500000000000007));
#94=DIRECTION('',(0.0,0.0,1.0));
#95=VECTOR('',#94,101.00000000000001);
#96=LINE('',#93,#95);
#97=EDGE_CURVE('',#92,#84,#96,.T.);
#98=ORIENTED_EDGE('',*,*,#97,.F.);
#99=CARTESIAN_POINT('',(-5.000000000013483,-3.0,-50.500000000000007));
#100=DIRECTION('',(0.0,1.0,0.0));
#101=VECTOR('',#100,100.0);
#102=LINE('',#99,#101);
#103=EDGE_CURVE('',#74,#92,#102,.T.);
#104=ORIENTED_EDGE('',*,*,#103,.F.);
#105=EDGE_LOOP('',(#82,#90,#98,#104));
#106=FACE_OUTER_BOUND('',#105,.T.);
#107=ADVANCED_FACE('',(#106),#72,.T.);
#108=CARTESIAN_POINT('',(4.999999999995453,-3.0,50.500000000000007));
#109=DIRECTION('',(1.0,0.0,0.0));
#110=DIRECTION('',(0.0,0.0,-1.0));
#111=AXIS2_PLACEMENT_3D('',#108,#109,#110);
#112=PLANE('',#111);
#113=CARTESIAN_POINT('',(4.999999999995453,-3.0,50.500000000000007));
#114=VERTEX_POINT('',#113);
#115=CARTESIAN_POINT('',(4.999999999995453,-3.0,-50.499999999997733));
#116=VERTEX_POINT('',#115);
#117=CARTESIAN_POINT('',(4.999999999995453,-3.0,50.500000000000007));
#118=DIRECTION('',(0.0,0.0,-1.0));
#119=VECTOR('',#118,100.99999999999774);
#120=LINE('',#117,#119);
#121=EDGE_CURVE('',#114,#116,#120,.T.);
#122=ORIENTED_EDGE('',*,*,#121,.T.);
#123=CARTESIAN_POINT('',(4.999999999995453,97.0,-50.499999999997733));
#124=VERTEX_POINT('',#123);
#125=CARTESIAN_POINT('',(4.999999999995453,97.0,-50.500000000000007));
#126=DIRECTION('',(0.0,-1.0,0.0));
#127=VECTOR('',#126,100.0);
#128=LINE('',#125,#127);
#129=EDGE_CURVE('',#124,#116,#128,.T.);
#130=ORIENTED_EDGE('',*,*,#129,.F.);
#131=CARTESIAN_POINT('',(4.999999999995453,97.0,50.500000000000007));
#132=VERTEX_POINT('',#131);
#133=CARTESIAN_POINT('',(4.999999999995453,97.0,50.500000000000007));
#134=DIRECTION('',(0.0,0.0,-1.0));
#135=VECTOR('',#134,100.99999999999774);
#136=LINE('',#133,#135);
#137=EDGE_CURVE('',#132,#124,#136,.T.);
#138=ORIENTED_EDGE('',*,*,#137,.F.);
#139=CARTESIAN_POINT('',(4.999999999995453,-3.0,50.500000000000007));
#140=DIRECTION('',(0.0,1.0,0.0));
#141=VECTOR('',#140,100.0);
#142=LINE('',#139,#141);
#143=EDGE_CURVE('',#114,#132,#142,.T.);
#144=ORIENTED_EDGE('',*,*,#143,.F.);
#145=EDGE_LOOP('',(#122,#130,#138,#144));
#146=FACE_OUTER_BOUND('',#145,.T.);
#147=ADVANCED_FACE('',(#146),#112,.T.);
#148=CARTESIAN_POINT('',(125.5,0.0,-50.500000000000007));
#149=DIRECTION('',(0.0,0.0,-1.0));
#150=DIRECTION('',(-1.0,0.0,0.0));
#151=AXIS2_PLACEMENT_3D('',#148,#149,#150);
#152=PLANE('',#151);
#153=ORIENTED_EDGE('',*,*,#103,.T.);
#154=CARTESIAN_POINT('',(-125.5,97.0,-50.500000000000007));
#155=VERTEX_POINT('',#154);
#156=CARTESIAN_POINT('',(-125.50000000000003,97.0,-50.500000000000007));
#157=DIRECTION('',(1.0,0.0,0.0));
#158=VECTOR('',#157,120.49999999998654);
#159=LINE('',#156,#158);
#160=EDGE_CURVE('',#155,#92,#159,.T.);
#161=ORIENTED_EDGE('',*,*,#160,.F.);
#162=CARTESIAN_POINT('',(-125.5,-3.0,-50.500000000000007));
#163=VERTEX_POINT('',#162);
#164=CARTESIAN_POINT('',(-125.5,-3.0,-50.500000000000007));
#165=DIRECTION('',(0.0,1.0,0.0));
#166=VECTOR('',#165,100.0);
#167=LINE('',#164,#166);
#168=EDGE_CURVE('',#163,#155,#167,.T.);
#169=ORIENTED_EDGE('',*,*,#168,.F.);
#170=CARTESIAN_POINT('',(-5.000000000013486,-3.0,-50.500000000000007));
#171=DIRECTION('',(-1.0,0.0,0.0));
#172=VECTOR('',#171,120.49999999998654);
#173=LINE('',#170,#172);
#174=EDGE_CURVE('',#74,#163,#173,.T.);
#175=ORIENTED_EDGE('',*,*,#174,.F.);
#176=EDGE_LOOP('',(#153,#161,#169,#175));
#177=FACE_OUTER_BOUND('',#176,.T.);
#178=ADVANCED_FACE('',(#177),#152,.F.);
#179=CARTESIAN_POINT('',(125.5,0.0,-50.500000000000007));
#180=DIRECTION('',(0.0,0.0,-1.0));
#181=DIRECTION('',(-1.0,0.0,0.0));
#182=AXIS2_PLACEMENT_3D('',#179,#180,#181);
#183=PLANE('',#182);
#184=ORIENTED_EDGE('',*,*,#129,.T.);
#185=CARTESIAN_POINT('',(125.5,-3.0,-50.500000000000007));
#186=VERTEX_POINT('',#185);
#187=CARTESIAN_POINT('',(125.5,-3.0,-50.500000000000007));
#188=DIRECTION('',(-1.0,0.0,0.0));
#189=VECTOR('',#188,120.50000000000455);
#190=LINE('',#187,#189);
#191=EDGE_CURVE('',#186,#116,#190,.T.);
#192=ORIENTED_EDGE('',*,*,#191,.F.);
#193=CARTESIAN_POINT('',(125.5,97.0,-50.500000000000007));
#194=VERTEX_POINT('',#193);
#195=CARTESIAN_POINT('',(125.5,97.0,-50.500000000000007));
#196=DIRECTION('',(0.0,-1.0,0.0));
#197=VECTOR('',#196,100.0);
#198=LINE('',#195,#197);
#199=EDGE_CURVE('',#194,#186,#198,.T.);
#200=ORIENTED_EDGE('',*,*,#199,.F.);
#201=CARTESIAN_POINT('',(4.999999999995453,97.0,-50.500000000000007));
#202=DIRECTION('',(1.0,0.0,0.0));
#203=VECTOR('',#202,120.50000000000455);
#204=LINE('',#201,#203);
#205=EDGE_CURVE('',#124,#194,#204,.T.);
#206=ORIENTED_EDGE('',*,*,#205,.F.);
#207=EDGE_LOOP('',(#184,#192,#200,#206));
#208=FACE_OUTER_BOUND('',#207,.T.);
#209=ADVANCED_FACE('',(#208),#183,.F.);
#210=CARTESIAN_POINT('',(-125.5,0.0,50.500000000000007));
#211=DIRECTION('',(0.0,0.0,1.0));
#212=DIRECTION('',(1.0,0.0,0.0));
#213=AXIS2_PLACEMENT_3D('',#210,#211,#212);
#214=PLANE('',#213);
#215=ORIENTED_EDGE('',*,*,#143,.T.);
#216=CARTESIAN_POINT('',(125.5,97.0,50.500000000000007));
#217=VERTEX_POINT('',#216);
#218=CARTESIAN_POINT('',(125.50000000000003,97.0,50.500000000000007));
#219=DIRECTION('',(-1.0,0.0,0.0));
#220=VECTOR('',#219,120.50000000000458);
#221=LINE('',#218,#220);
#222=EDGE_CURVE('',#217,#132,#221,.T.);
#223=ORIENTED_EDGE('',*,*,#222,.F.);
#224=CARTESIAN_POINT('',(125.5,-3.0,50.500000000000007));
#225=VERTEX_POINT('',#224);
#226=CARTESIAN_POINT('',(125.5,-3.0,50.500000000000007));
#227=DIRECTION('',(0.0,1.0,0.0));
#228=VECTOR('',#227,100.0);
#229=LINE('',#226,#228);
#230=EDGE_CURVE('',#225,#217,#229,.T.);
#231=ORIENTED_EDGE('',*,*,#230,.F.);
#232=CARTESIAN_POINT('',(4.999999999995453,-3.0,50.500000000000007));
#233=DIRECTION('',(1.0,0.0,0.0));
#234=VECTOR('',#233,120.50000000000458);
#235=LINE('',#232,#234);
#236=EDGE_CURVE('',#114,#225,#235,.T.);
#237=ORIENTED_EDGE('',*,*,#236,.F.);
#238=EDGE_LOOP('',(#215,#223,#231,#237));
#239=FACE_OUTER_BOUND('',#238,.T.);
#240=ADVANCED_FACE('',(#239),#214,.F.);
#241=CARTESIAN_POINT('',(-125.5,0.0,50.500000000000007));
#242=DIRECTION('',(0.0,0.0,1.0));
#243=DIRECTION('',(1.0,0.0,0.0));
#244=AXIS2_PLACEMENT_3D('',#241,#242,#243);
#245=PLANE('',#244);
#246=ORIENTED_EDGE('',*,*,#89,.T.);
#247=CARTESIAN_POINT('',(-125.5,-3.0,50.500000000000007));
#248=VERTEX_POINT('',#247);
#249=CARTESIAN_POINT('',(-125.5,-3.0,50.500000000000007));
#250=DIRECTION('',(1.0,0.0,0.0));
#251=VECTOR('',#250,120.4999999999865);
#252=LINE('',#249,#251);
#253=EDGE_CURVE('',#248,#76,#252,.T.);
#254=ORIENTED_EDGE('',*,*,#253,.F.);
#255=CARTESIAN_POINT('',(-125.5,97.0,50.500000000000007));
#256=VERTEX_POINT('',#255);
#257=CARTESIAN_POINT('',(-125.5,-3.0,50.500000000000007));
#258=DIRECTION('',(0.0,1.0,0.0));
#259=VECTOR('',#258,100.0);
#260=LINE('',#257,#259);
#261=EDGE_CURVE('',#248,#256,#260,.T.);
#262=ORIENTED_EDGE('',*,*,#261,.T.);
#263=CARTESIAN_POINT('',(-5.0000000000135,97.0,50.500000000000007));
#264=DIRECTION('',(-1.0,0.0,0.0));
#265=VECTOR('',#264,120.4999999999865);
#266=LINE('',#263,#265);
#267=EDGE_CURVE('',#84,#256,#266,.T.);
#268=ORIENTED_EDGE('',*,*,#267,.F.);
#269=EDGE_LOOP('',(#246,#254,#262,#268));
#270=FACE_OUTER_BOUND('',#269,.T.);
#271=ADVANCED_FACE('',(#270),#245,.F.);
#272=CARTESIAN_POINT('',(125.5,0.0,50.500000000000007));
#273=DIRECTION('',(1.0,0.0,0.0));
#274=DIRECTION('',(0.0,0.0,-1.0));
#275=AXIS2_PLACEMENT_3D('',#272,#273,#274);
#276=PLANE('',#275);
#277=ORIENTED_EDGE('',*,*,#199,.T.);
#278=CARTESIAN_POINT('',(125.5,-3.0,50.500000000000007));
#279=DIRECTION('',(0.0,0.0,-1.0));
#280=VECTOR('',#279,101.00000000000003);
#281=LINE('',#278,#280);
#282=EDGE_CURVE('',#225,#186,#281,.T.);
#283=ORIENTED_EDGE('',*,*,#282,.F.);
#284=ORIENTED_EDGE('',*,*,#230,.T.);
#285=CARTESIAN_POINT('',(125.5,97.0,-50.500000000000014));
#286=DIRECTION('',(0.0,0.0,1.0));
#287=VECTOR('',#286,101.00000000000003);
#288=LINE('',#285,#287);
#289=EDGE_CURVE('',#194,#217,#288,.T.);
#290=ORIENTED_EDGE('',*,*,#289,.F.);
#291=EDGE_LOOP('',(#277,#283,#284,#290));
#292=FACE_OUTER_BOUND('',#291,.T.);
#293=ADVANCED_FACE('',(#292),#276,.F.);
#294=CARTESIAN_POINT('',(-125.5,0.0,-50.500000000000007));
#295=DIRECTION('',(-1.0,0.0,0.0));
#296=DIRECTION('',(0.0,0.0,1.0));
#297=AXIS2_PLACEMENT_3D('',#294,#295,#296);
#298=PLANE('',#297);
#299=ORIENTED_EDGE('',*,*,#261,.F.);
#300=CARTESIAN_POINT('',(-125.5,-3.0,-50.500000000000007));
#301=DIRECTION('',(0.0,0.0,1.0));
#302=VECTOR('',#301,101.00000000000003);
#303=LINE('',#300,#302);
#304=EDGE_CURVE('',#163,#248,#303,.T.);
#305=ORIENTED_EDGE('',*,*,#304,.F.);
#306=ORIENTED_EDGE('',*,*,#168,.T.);
#307=CARTESIAN_POINT('',(-125.5,97.0,50.500000000000014));
#308=DIRECTION('',(0.0,0.0,-1.0));
#309=VECTOR('',#308,101.00000000000003);
#310=LINE('',#307,#309);
#311=EDGE_CURVE('',#256,#155,#310,.T.);
#312=ORIENTED_EDGE('',*,*,#311,.F.);
#313=EDGE_LOOP('',(#299,#305,#306,#312));
#314=FACE_OUTER_BOUND('',#313,.T.);
#315=ADVANCED_FACE('',(#314),#298,.F.);
#316=CARTESIAN_POINT('',(2.789088E-015,-3.0,-1.830339E-015));
#317=DIRECTION('',(0.0,-1.0,0.0));
#318=DIRECTION('',(0.0,0.0,-1.0));
#319=AXIS2_PLACEMENT_3D('',#316,#317,#318);
#320=PLANE('',#319);
#321=CARTESIAN_POINT('',(135.50000000000003,-3.0,-54.499999999999972));
#322=VERTEX_POINT('',#321);
#323=CARTESIAN_POINT('',(135.50000000000003,-3.0,54.500000000000028));
#324=VERTEX_POINT('',#323);
#325=CARTESIAN_POINT('',(135.50000000000003,-3.0,-54.499999999999972));
#326=DIRECTION('',(0.0,0.0,1.0));
#327=VECTOR('',#326,109.0);
#328=LINE('',#325,#327);
#329=EDGE_CURVE('',#322,#324,#328,.T.);
#330=ORIENTED_EDGE('',*,*,#329,.T.);
#331=CARTESIAN_POINT('',(129.5,-3.0,60.499999999999986));
#332=VERTEX_POINT('',#331);
#333=CARTESIAN_POINT('',(129.5,-3.0,54.500000000000028));
#334=DIRECTION('',(0.0,-1.0,0.0));
#335=DIRECTION('',(0.0,0.0,1.0));
#336=AXIS2_PLACEMENT_3D('',#333,#334,#335);
#337=CIRCLE('',#336,6.000000000000001);
#338=EDGE_CURVE('',#324,#332,#337,.T.);
#339=ORIENTED_EDGE('',*,*,#338,.T.);
#340=CARTESIAN_POINT('',(-129.49999999999997,-3.0,60.499999999999986));
#341=VERTEX_POINT('',#340);
#342=CARTESIAN_POINT('',(129.5,-3.0,60.499999999999986));
#343=DIRECTION('',(-1.0,0.0,0.0));
#344=VECTOR('',#343,259.0);
#345=LINE('',#342,#344);
#346=EDGE_CURVE('',#332,#341,#345,.T.);
#347=ORIENTED_EDGE('',*,*,#346,.T.);
#348=CARTESIAN_POINT('',(-135.5,-3.0,54.500000000000028));
#349=VERTEX_POINT('',#348);
#350=CARTESIAN_POINT('',(-129.5,-3.0,54.500000000000028));
#351=DIRECTION('',(0.0,-1.0,0.0));
#352=DIRECTION('',(-1.0,0.0,0.0));
#353=AXIS2_PLACEMENT_3D('',#350,#351,#352);
#354=CIRCLE('',#353,6.000000000000001);
#355=EDGE_CURVE('',#341,#349,#354,.T.);
#356=ORIENTED_EDGE('',*,*,#355,.T.);
#357=CARTESIAN_POINT('',(-135.5,-3.0,-54.499999999999972));
#358=VERTEX_POINT('',#357);
#359=CARTESIAN_POINT('',(-135.5,-3.0,54.500000000000028));
#360=DIRECTION('',(0.0,0.0,-1.0));
#361=VECTOR('',#360,109.0);
#362=LINE('',#359,#361);
#363=EDGE_CURVE('',#349,#358,#362,.T.);
#364=ORIENTED_EDGE('',*,*,#363,.T.);
#365=CARTESIAN_POINT('',(-129.49999999999997,-3.0,-60.500000000000007));
#366=VERTEX_POINT('',#365);
#367=CARTESIAN_POINT('',(-129.5,-3.0,-54.499999999999993));
#368=DIRECTION('',(0.0,-1.0,0.0));
#369=DIRECTION('',(0.0,0.0,-1.0));
#370=AXIS2_PLACEMENT_3D('',#367,#368,#369);
#371=CIRCLE('',#370,6.000000000000001);
#372=EDGE_CURVE('',#358,#366,#371,.T.);
#373=ORIENTED_EDGE('',*,*,#372,.T.);
#374=CARTESIAN_POINT('',(129.50000000000003,-3.0,-60.500000000000007));
#375=VERTEX_POINT('',#374);
#376=CARTESIAN_POINT('',(-129.49999999999997,-3.0,-60.500000000000007));
#377=DIRECTION('',(1.0,0.0,0.0));
#378=VECTOR('',#377,259.0);
#379=LINE('',#376,#378);
#380=EDGE_CURVE('',#366,#375,#379,.T.);
#381=ORIENTED_EDGE('',*,*,#380,.T.);
#382=CARTESIAN_POINT('',(129.50000000000003,-3.0,-54.499999999999993));
#383=DIRECTION('',(0.0,-1.0,0.0));
#384=DIRECTION('',(1.0,0.0,0.0));
#385=AXIS2_PLACEMENT_3D('',#382,#383,#384);
#386=CIRCLE('',#385,6.000000000000001);
#387=EDGE_CURVE('',#375,#322,#386,.T.);
#388=ORIENTED_EDGE('',*,*,#387,.T.);
#389=EDGE_LOOP('',(#330,#339,#347,#356,#364,#373,#381,#388));
#390=FACE_OUTER_BOUND('',#389,.T.);
#391=ORIENTED_EDGE('',*,*,#174,.T.);
#392=ORIENTED_EDGE('',*,*,#304,.T.);
#393=ORIENTED_EDGE('',*,*,#253,.T.);
#394=ORIENTED_EDGE('',*,*,#81,.F.);
#395=EDGE_LOOP('',(#391,#392,#393,#394));
#396=FACE_BOUND('',#395,.T.);
#397=ORIENTED_EDGE('',*,*,#121,.F.);
#398=ORIENTED_EDGE('',*,*,#236,.T.);
#399=ORIENTED_EDGE('',*,*,#282,.T.);
#400=ORIENTED_EDGE('',*,*,#191,.T.);
#401=EDGE_LOOP('',(#397,#398,#399,#400));
#402=FACE_BOUND('',#401,.T.);
#403=ADVANCED_FACE('',(#390,#396,#402),#320,.T.);
#404=CARTESIAN_POINT('',(129.5,0.0,54.500000000000028));
#405=DIRECTION('',(0.0,1.0,0.0));
#406=DIRECTION('',(0.0,0.0,1.0));
#407=AXIS2_PLACEMENT_3D('',#404,#405,#406);
#408=CYLINDRICAL_SURFACE('',#407,6.000000000000001);
#409=CARTESIAN_POINT('',(135.50000000000003,97.0,54.500000000000028));
#410=VERTEX_POINT('',#409);
#411=CARTESIAN_POINT('',(135.50000000000003,97.0,54.500000000000028));
#412=DIRECTION('',(0.0,-1.0,0.0));
#413=VECTOR('',#412,100.0);
#414=LINE('',#411,#413);
#415=EDGE_CURVE('',#410,#324,#414,.T.);
#416=ORIENTED_EDGE('',*,*,#415,.F.);
#417=CARTESIAN_POINT('',(129.5,97.0,60.499999999999986));
#418=VERTEX_POINT('',#417);
#419=CARTESIAN_POINT('',(129.5,97.0,54.500000000000028));
#420=DIRECTION('',(0.0,1.0,0.0));
#421=DIRECTION('',(0.0,0.0,1.0));
#422=AXIS2_PLACEMENT_3D('',#419,#420,#421);
#423=CIRCLE('',#422,6.000000000000001);
#424=EDGE_CURVE('',#418,#410,#423,.T.);
#425=ORIENTED_EDGE('',*,*,#424,.F.);
#426=CARTESIAN_POINT('',(129.5,-3.0,60.499999999999986));
#427=DIRECTION('',(0.0,1.0,0.0));
#428=VECTOR('',#427,100.0);
#429=LINE('',#426,#428);
#430=EDGE_CURVE('',#332,#418,#429,.T.);
#431=ORIENTED_EDGE('',*,*,#430,.F.);
#432=ORIENTED_EDGE('',*,*,#338,.F.);
#433=EDGE_LOOP('',(#416,#425,#431,#432));
#434=FACE_OUTER_BOUND('',#433,.T.);
#435=ADVANCED_FACE('',(#434),#408,.T.);
#436=CARTESIAN_POINT('',(-129.5,0.0,60.499999999999986));
#437=DIRECTION('',(0.0,0.0,1.0));
#438=DIRECTION('',(1.0,0.0,0.0));
#439=AXIS2_PLACEMENT_3D('',#436,#437,#438);
#440=PLANE('',#439);
#441=ORIENTED_EDGE('',*,*,#430,.T.);
#442=CARTESIAN_POINT('',(-129.49999999999997,97.0,60.499999999999986));
#443=VERTEX_POINT('',#442);
#444=CARTESIAN_POINT('',(-129.5,97.0,60.499999999999986));
#445=DIRECTION('',(1.0,0.0,0.0));
#446=VECTOR('',#445,259.0);
#447=LINE('',#444,#446);
#448=EDGE_CURVE('',#443,#418,#447,.T.);
#449=ORIENTED_EDGE('',*,*,#448,.F.);
#450=CARTESIAN_POINT('',(-129.5,-3.0,60.499999999999986));
#451=DIRECTION('',(0.0,1.0,0.0));
#452=VECTOR('',#451,100.0);
#453=LINE('',#450,#452);
#454=EDGE_CURVE('',#341,#443,#453,.T.);
#455=ORIENTED_EDGE('',*,*,#454,.F.);
#456=ORIENTED_EDGE('',*,*,#346,.F.);
#457=EDGE_LOOP('',(#441,#449,#455,#456));
#458=FACE_OUTER_BOUND('',#457,.T.);
#459=ADVANCED_FACE('',(#458),#440,.T.);
#460=CARTESIAN_POINT('',(-129.5,0.0,54.500000000000028));
#461=DIRECTION('',(0.0,1.0,0.0));
#462=DIRECTION('',(-1.0,0.0,0.0));
#463=AXIS2_PLACEMENT_3D('',#460,#461,#462);
#464=CYLINDRICAL_SURFACE('',#463,6.000000000000001);
#465=ORIENTED_EDGE('',*,*,#454,.T.);
#466=CARTESIAN_POINT('',(-135.5,97.0,54.500000000000028));
#467=VERTEX_POINT('',#466);
#468=CARTESIAN_POINT('',(-129.5,97.0,54.500000000000028));
#469=DIRECTION('',(0.0,1.0,0.0));
#470=DIRECTION('',(-1.0,0.0,0.0));
#471=AXIS2_PLACEMENT_3D('',#468,#469,#470);
#472=CIRCLE('',#471,6.000000000000001);
#473=EDGE_CURVE('',#467,#443,#472,.T.);
#474=ORIENTED_EDGE('',*,*,#473,.F.);
#475=CARTESIAN_POINT('',(-135.5,-3.0,54.500000000000028));
#476=DIRECTION('',(0.0,1.0,0.0));
#477=VECTOR('',#476,100.0);
#478=LINE('',#475,#477);
#479=EDGE_CURVE('',#349,#467,#478,.T.);
#480=ORIENTED_EDGE('',*,*,#479,.F.);
#481=ORIENTED_EDGE('',*,*,#355,.F.);
#482=EDGE_LOOP('',(#465,#474,#480,#481));
#483=FACE_OUTER_BOUND('',#482,.T.);
#484=ADVANCED_FACE('',(#483),#464,.T.);
#485=CARTESIAN_POINT('',(-135.5,0.0,-54.499999999999972));
#486=DIRECTION('',(-1.0,0.0,0.0));
#487=DIRECTION('',(0.0,0.0,1.0));
#488=AXIS2_PLACEMENT_3D('',#485,#486,#487);
#489=PLANE('',#488);
#490=ORIENTED_EDGE('',*,*,#479,.T.);
#491=CARTESIAN_POINT('',(-135.5,97.0,-54.499999999999972));
#492=VERTEX_POINT('',#491);
#493=CARTESIAN_POINT('',(-135.5,97.0,-54.499999999999972));
#494=DIRECTION('',(0.0,0.0,1.0));
#495=VECTOR('',#494,109.0);
#496=LINE('',#493,#495);
#497=EDGE_CURVE('',#492,#467,#496,.T.);
#498=ORIENTED_EDGE('',*,*,#497,.F.);
#499=CARTESIAN_POINT('',(-135.5,-3.0,-54.499999999999972));
#500=DIRECTION('',(0.0,1.0,0.0));
#501=VECTOR('',#500,100.0);
#502=LINE('',#499,#501);
#503=EDGE_CURVE('',#358,#492,#502,.T.);
#504=ORIENTED_EDGE('',*,*,#503,.F.);
#505=ORIENTED_EDGE('',*,*,#363,.F.);
#506=EDGE_LOOP('',(#490,#498,#504,#505));
#507=FACE_OUTER_BOUND('',#506,.T.);
#508=ADVANCED_FACE('',(#507),#489,.T.);
#509=CARTESIAN_POINT('',(-129.5,0.0,-54.499999999999993));
#510=DIRECTION('',(0.0,1.0,0.0));
#511=DIRECTION('',(0.0,0.0,-1.0));
#512=AXIS2_PLACEMENT_3D('',#509,#510,#511);
#513=CYLINDRICAL_SURFACE('',#512,6.000000000000001);
#514=ORIENTED_EDGE('',*,*,#503,.T.);
#515=CARTESIAN_POINT('',(-129.49999999999997,97.0,-60.500000000000007));
#516=VERTEX_POINT('',#515);
#517=CARTESIAN_POINT('',(-129.5,97.0,-54.499999999999993));
#518=DIRECTION('',(0.0,1.0,0.0));
#519=DIRECTION('',(0.0,0.0,-1.0));
#520=AXIS2_PLACEMENT_3D('',#517,#518,#519);
#521=CIRCLE('',#520,6.000000000000001);
#522=EDGE_CURVE('',#516,#492,#521,.T.);
#523=ORIENTED_EDGE('',*,*,#522,.F.);
#524=CARTESIAN_POINT('',(-129.5,-3.0,-60.500000000000007));
#525=DIRECTION('',(0.0,1.0,0.0));
#526=VECTOR('',#525,100.0);
#527=LINE('',#524,#526);
#528=EDGE_CURVE('',#366,#516,#527,.T.);
#529=ORIENTED_EDGE('',*,*,#528,.F.);
#530=ORIENTED_EDGE('',*,*,#372,.F.);
#531=EDGE_LOOP('',(#514,#523,#529,#530));
#532=FACE_OUTER_BOUND('',#531,.T.);
#533=ADVANCED_FACE('',(#532),#513,.T.);
#534=CARTESIAN_POINT('',(129.50000000000003,0.0,-60.500000000000007));
#535=DIRECTION('',(0.0,0.0,-1.0));
#536=DIRECTION('',(-1.0,0.0,0.0));
#537=AXIS2_PLACEMENT_3D('',#534,#535,#536);
#538=PLANE('',#537);
#539=ORIENTED_EDGE('',*,*,#528,.T.);
#540=CARTESIAN_POINT('',(129.50000000000003,97.0,-60.500000000000007));
#541=VERTEX_POINT('',#540);
#542=CARTESIAN_POINT('',(129.50000000000003,97.0,-60.500000000000007));
#543=DIRECTION('',(-1.0,0.0,0.0));
#544=VECTOR('',#543,259.0);
#545=LINE('',#542,#544);
#546=EDGE_CURVE('',#541,#516,#545,.T.);
#547=ORIENTED_EDGE('',*,*,#546,.F.);
#548=CARTESIAN_POINT('',(129.50000000000003,-3.0,-60.500000000000007));
#549=DIRECTION('',(0.0,1.0,0.0));
#550=VECTOR('',#549,100.0);
#551=LINE('',#548,#550);
#552=EDGE_CURVE('',#375,#541,#551,.T.);
#553=ORIENTED_EDGE('',*,*,#552,.F.);
#554=ORIENTED_EDGE('',*,*,#380,.F.);
#555=EDGE_LOOP('',(#539,#547,#553,#554));
#556=FACE_OUTER_BOUND('',#555,.T.);
#557=ADVANCED_FACE('',(#556),#538,.T.);
#558=CARTESIAN_POINT('',(129.50000000000003,0.0,-54.499999999999993));
#559=DIRECTION('',(0.0,1.0,0.0));
#560=DIRECTION('',(1.0,0.0,0.0));
#561=AXIS2_PLACEMENT_3D('',#558,#559,#560);
#562=CYLINDRICAL_SURFACE('',#561,6.000000000000001);
#563=ORIENTED_EDGE('',*,*,#552,.T.);
#564=CARTESIAN_POINT('',(135.50000000000003,97.0,-54.499999999999972));
#565=VERTEX_POINT('',#564);
#566=CARTESIAN_POINT('',(129.50000000000003,97.0,-54.499999999999993));
#567=DIRECTION('',(0.0,1.0,0.0));
#568=DIRECTION('',(1.0,0.0,0.0));
#569=AXIS2_PLACEMENT_3D('',#566,#567,#568);
#570=CIRCLE('',#569,6.000000000000001);
#571=EDGE_CURVE('',#565,#541,#570,.T.);
#572=ORIENTED_EDGE('',*,*,#571,.F.);
#573=CARTESIAN_POINT('',(135.50000000000003,-3.0,-54.499999999999972));
#574=DIRECTION('',(0.0,1.0,0.0));
#575=VECTOR('',#574,100.0);
#576=LINE('',#573,#575);
#577=EDGE_CURVE('',#322,#565,#576,.T.);
#578=ORIENTED_EDGE('',*,*,#577,.F.);
#579=ORIENTED_EDGE('',*,*,#387,.F.);
#580=EDGE_LOOP('',(#563,#572,#578,#579));
#581=FACE_OUTER_BOUND('',#580,.T.);
#582=ADVANCED_FACE('',(#581),#562,.T.);
#583=CARTESIAN_POINT('',(135.50000000000003,0.0,54.500000000000028));
#584=DIRECTION('',(1.0,0.0,0.0));
#585=DIRECTION('',(0.0,0.0,-1.0));
#586=AXIS2_PLACEMENT_3D('',#583,#584,#585);
#587=PLANE('',#586);
#588=ORIENTED_EDGE('',*,*,#577,.T.);
#589=CARTESIAN_POINT('',(135.50000000000003,97.0,54.500000000000028));
#590=DIRECTION('',(0.0,0.0,-1.0));
#591=VECTOR('',#590,109.0);
#592=LINE('',#589,#591);
#593=EDGE_CURVE('',#410,#565,#592,.T.);
#594=ORIENTED_EDGE('',*,*,#593,.F.);
#595=ORIENTED_EDGE('',*,*,#415,.T.);
#596=ORIENTED_EDGE('',*,*,#329,.F.);
#597=EDGE_LOOP('',(#588,#594,#595,#596));
#598=FACE_OUTER_BOUND('',#597,.T.);
#599=ADVANCED_FACE('',(#598),#587,.T.);
#600=CARTESIAN_POINT('',(2.789088E-015,97.0,-1.830339E-015));
#601=DIRECTION('',(0.0,-1.0,0.0));
#602=DIRECTION('',(0.0,0.0,-1.0));
#603=AXIS2_PLACEMENT_3D('',#600,#601,#602);
#604=PLANE('',#603);
#605=ORIENTED_EDGE('',*,*,#593,.T.);
#606=ORIENTED_EDGE('',*,*,#571,.T.);
#607=ORIENTED_EDGE('',*,*,#546,.T.);
#608=ORIENTED_EDGE('',*,*,#522,.T.);
#609=ORIENTED_EDGE('',*,*,#497,.T.);
#610=ORIENTED_EDGE('',*,*,#473,.T.);
#611=ORIENTED_EDGE('',*,*,#448,.T.);
#612=ORIENTED_EDGE('',*,*,#424,.T.);
#613=EDGE_LOOP('',(#605,#606,#607,#608,#609,#610,#611,#612));
#614=FACE_OUTER_BOUND('',#613,.T.);
#615=ORIENTED_EDGE('',*,*,#205,.T.);
#616=ORIENTED_EDGE('',*,*,#289,.T.);
#617=ORIENTED_EDGE('',*,*,#222,.T.);
#618=ORIENTED_EDGE('',*,*,#137,.T.);
#619=EDGE_LOOP('',(#615,#616,#617,#618));
#620=FACE_BOUND('',#619,.T.);
#621=ORIENTED_EDGE('',*,*,#97,.T.);
#622=ORIENTED_EDGE('',*,*,#267,.T.);
#623=ORIENTED_EDGE('',*,*,#311,.T.);
#624=ORIENTED_EDGE('',*,*,#160,.T.);
#625=EDGE_LOOP('',(#621,#622,#623,#624));
#626=FACE_BOUND('',#625,.T.);
#627=ADVANCED_FACE('',(#614,#620,#626),#604,.F.);
#628=CLOSED_SHELL('',(#107,#147,#178,#209,#240,#271,#293,#315,#403,#435,#459,#484,#508,#533,#557,#582,#599,#627));
#629=MANIFOLD_SOLID_BREP('Solid1',#628);
#630=COLOUR_RGB('Silicon Nitride - Polished',0.800000011920929,0.796078443527222,0.701960802078247);
#631=FILL_AREA_STYLE_COLOUR('Silicon Nitride - Polished',#630);
#632=FILL_AREA_STYLE('Silicon Nitride - Polished',(#631));
#633=SURFACE_STYLE_FILL_AREA(#632);
#634=SURFACE_SIDE_STYLE('Silicon Nitride - Polished',(#633));
#635=SURFACE_STYLE_USAGE(.BOTH.,#634);
#636=PRESENTATION_STYLE_ASSIGNMENT((#635));
#637=STYLED_ITEM('',(#636),#629);
#638=MECHANICAL_DESIGN_GEOMETRIC_PRESENTATION_REPRESENTATION('',(#637),#36);
#639=ADVANCED_BREP_SHAPE_REPRESENTATION('ABSR',(#629),#36);
#640=SHAPE_REPRESENTATION_RELATIONSHIP('SRR','None',#639,#41);
ENDSEC;
END-ISO-10303-21;
